ISO-10303-21;
HEADER;
/* Generated by software containing ST-Developer
 * from STEP Tools, Inc. (www.steptools.com) 
 */

FILE_DESCRIPTION(
/* description */ ('D\X\E4mpfungsring 60'),
/* implementation_level */ '2;1');

FILE_NAME(
/* name */ 
'T:\\Produktinformationen\\MT\\B45\\3D-Files B45\\D\X\E4mpfungsringe\\
413522301 D\X\E4mpfungsring 60.stp',
/* time_stamp */ '2020-07-24T10:47:21+02:00',
/* author */ ('wheldmann'),
/* organization */ (''),
/* preprocessor_version */ 'ST-DEVELOPER v17.2',
/* originating_system */ 'Autodesk Inventor 2019',
/* authorisation */ ' ');

FILE_SCHEMA (('AUTOMOTIVE_DESIGN { 1 0 10303 214 3 1 1 }'));
ENDSEC;

DATA;
#10=MECHANICAL_DESIGN_GEOMETRIC_PRESENTATION_REPRESENTATION('',(#13),#411);
#11=SHAPE_REPRESENTATION_RELATIONSHIP('SRR','None',#418,#12);
#12=ADVANCED_BREP_SHAPE_REPRESENTATION('',(#14),#410);
#13=STYLED_ITEM('',(#427),#14);
#14=MANIFOLD_SOLID_BREP('Volumenk\X\F6rper2',#216);
#15=CYLINDRICAL_SURFACE('',#262,24.4);
#16=FACE_BOUND('',#39,.T.);
#17=FACE_BOUND('',#43,.T.);
#18=FACE_BOUND('',#47,.T.);
#19=FACE_BOUND('',#51,.T.);
#20=PLANE('',#243);
#21=PLANE('',#251);
#22=PLANE('',#259);
#23=PLANE('',#268);
#24=FACE_OUTER_BOUND('',#36,.T.);
#25=FACE_OUTER_BOUND('',#37,.T.);
#26=FACE_OUTER_BOUND('',#38,.T.);
#27=FACE_OUTER_BOUND('',#40,.T.);
#28=FACE_OUTER_BOUND('',#41,.T.);
#29=FACE_OUTER_BOUND('',#42,.T.);
#30=FACE_OUTER_BOUND('',#44,.T.);
#31=FACE_OUTER_BOUND('',#45,.T.);
#32=FACE_OUTER_BOUND('',#46,.T.);
#33=FACE_OUTER_BOUND('',#48,.T.);
#34=FACE_OUTER_BOUND('',#49,.T.);
#35=FACE_OUTER_BOUND('',#50,.T.);
#36=EDGE_LOOP('',(#139,#140,#141,#142,#143));
#37=EDGE_LOOP('',(#144,#145,#146,#147,#148,#149));
#38=EDGE_LOOP('',(#150));
#39=EDGE_LOOP('',(#151,#152));
#40=EDGE_LOOP('',(#153,#154,#155,#156,#157));
#41=EDGE_LOOP('',(#158,#159,#160,#161,#162,#163));
#42=EDGE_LOOP('',(#164,#165));
#43=EDGE_LOOP('',(#166));
#44=EDGE_LOOP('',(#167,#168,#169,#170,#171));
#45=EDGE_LOOP('',(#172,#173,#174,#175,#176,#177));
#46=EDGE_LOOP('',(#178,#179));
#47=EDGE_LOOP('',(#180,#181));
#48=EDGE_LOOP('',(#182,#183,#184,#185,#186,#187));
#49=EDGE_LOOP('',(#188,#189,#190,#191,#192,#193));
#50=EDGE_LOOP('',(#194,#195));
#51=EDGE_LOOP('',(#196));
#52=LINE('',#351,#60);
#53=LINE('',#356,#61);
#54=LINE('',#367,#62);
#55=LINE('',#371,#63);
#56=LINE('',#382,#64);
#57=LINE('',#386,#65);
#58=LINE('',#399,#66);
#59=LINE('',#403,#67);
#60=VECTOR('',#275,21.9453079228);
#61=VECTOR('',#282,21.24);
#62=VECTOR('',#295,32.9446920772);
#63=VECTOR('',#300,33.65);
#64=VECTOR('',#313,29.7471444325);
#65=VECTOR('',#318,29.13);
#66=VECTOR('',#333,24.4);
#67=VECTOR('',#338,24.4);
#68=CIRCLE('',#237,21.24);
#69=CIRCLE('',#238,21.9453079228);
#70=CIRCLE('',#239,21.24);
#71=CIRCLE('',#241,21.9453079228);
#72=CIRCLE('',#242,21.9453079228);
#73=CIRCLE('',#244,32.9446920772);
#74=CIRCLE('',#246,33.65);
#75=CIRCLE('',#247,33.65);
#76=CIRCLE('',#249,32.5920381157);
#77=CIRCLE('',#250,32.5920381157);
#78=CIRCLE('',#252,29.7471444325);
#79=CIRCLE('',#254,29.13);
#80=CIRCLE('',#255,29.13);
#81=CIRCLE('',#257,29.7998729811);
#82=CIRCLE('',#258,29.7998729811);
#83=CIRCLE('',#260,24.4);
#84=CIRCLE('',#261,24.4);
#85=CIRCLE('',#263,24.4);
#86=CIRCLE('',#264,24.4);
#87=CIRCLE('',#266,23.5961524227);
#88=CIRCLE('',#267,23.5961524227);
#89=VERTEX_POINT('',#347);
#90=VERTEX_POINT('',#348);
#91=VERTEX_POINT('',#350);
#92=VERTEX_POINT('',#355);
#93=VERTEX_POINT('',#357);
#94=VERTEX_POINT('',#361);
#95=VERTEX_POINT('',#364);
#96=VERTEX_POINT('',#365);
#97=VERTEX_POINT('',#370);
#98=VERTEX_POINT('',#372);
#99=VERTEX_POINT('',#376);
#100=VERTEX_POINT('',#379);
#101=VERTEX_POINT('',#380);
#102=VERTEX_POINT('',#385);
#103=VERTEX_POINT('',#387);
#104=VERTEX_POINT('',#391);
#105=VERTEX_POINT('',#392);
#106=VERTEX_POINT('',#396);
#107=VERTEX_POINT('',#397);
#108=VERTEX_POINT('',#402);
#109=VERTEX_POINT('',#404);
#110=EDGE_CURVE('',#89,#90,#68,.T.);
#111=EDGE_CURVE('',#90,#91,#52,.T.);
#112=EDGE_CURVE('',#91,#91,#69,.T.);
#113=EDGE_CURVE('',#90,#89,#70,.T.);
#114=EDGE_CURVE('',#89,#92,#53,.T.);
#115=EDGE_CURVE('',#92,#93,#71,.T.);
#116=EDGE_CURVE('',#93,#92,#72,.T.);
#117=EDGE_CURVE('',#94,#94,#73,.T.);
#118=EDGE_CURVE('',#95,#96,#74,.T.);
#119=EDGE_CURVE('',#96,#94,#54,.T.);
#120=EDGE_CURVE('',#96,#95,#75,.T.);
#121=EDGE_CURVE('',#95,#97,#55,.T.);
#122=EDGE_CURVE('',#97,#98,#76,.T.);
#123=EDGE_CURVE('',#98,#97,#77,.T.);
#124=EDGE_CURVE('',#99,#99,#78,.T.);
#125=EDGE_CURVE('',#100,#101,#79,.T.);
#126=EDGE_CURVE('',#101,#99,#56,.T.);
#127=EDGE_CURVE('',#101,#100,#80,.T.);
#128=EDGE_CURVE('',#100,#102,#57,.T.);
#129=EDGE_CURVE('',#102,#103,#81,.T.);
#130=EDGE_CURVE('',#103,#102,#82,.T.);
#131=EDGE_CURVE('',#104,#105,#83,.T.);
#132=EDGE_CURVE('',#105,#104,#84,.T.);
#133=EDGE_CURVE('',#106,#107,#85,.T.);
#134=EDGE_CURVE('',#107,#105,#58,.T.);
#135=EDGE_CURVE('',#107,#106,#86,.T.);
#136=EDGE_CURVE('',#107,#108,#59,.T.);
#137=EDGE_CURVE('',#108,#109,#87,.T.);
#138=EDGE_CURVE('',#109,#108,#88,.T.);
#139=ORIENTED_EDGE('',*,*,#110,.T.);
#140=ORIENTED_EDGE('',*,*,#111,.T.);
#141=ORIENTED_EDGE('',*,*,#112,.F.);
#142=ORIENTED_EDGE('',*,*,#111,.F.);
#143=ORIENTED_EDGE('',*,*,#113,.T.);
#144=ORIENTED_EDGE('',*,*,#110,.F.);
#145=ORIENTED_EDGE('',*,*,#114,.T.);
#146=ORIENTED_EDGE('',*,*,#115,.T.);
#147=ORIENTED_EDGE('',*,*,#116,.T.);
#148=ORIENTED_EDGE('',*,*,#114,.F.);
#149=ORIENTED_EDGE('',*,*,#113,.F.);
#150=ORIENTED_EDGE('',*,*,#117,.T.);
#151=ORIENTED_EDGE('',*,*,#116,.F.);
#152=ORIENTED_EDGE('',*,*,#115,.F.);
#153=ORIENTED_EDGE('',*,*,#118,.T.);
#154=ORIENTED_EDGE('',*,*,#119,.T.);
#155=ORIENTED_EDGE('',*,*,#117,.F.);
#156=ORIENTED_EDGE('',*,*,#119,.F.);
#157=ORIENTED_EDGE('',*,*,#120,.T.);
#158=ORIENTED_EDGE('',*,*,#118,.F.);
#159=ORIENTED_EDGE('',*,*,#121,.T.);
#160=ORIENTED_EDGE('',*,*,#122,.T.);
#161=ORIENTED_EDGE('',*,*,#123,.T.);
#162=ORIENTED_EDGE('',*,*,#121,.F.);
#163=ORIENTED_EDGE('',*,*,#120,.F.);
#164=ORIENTED_EDGE('',*,*,#123,.F.);
#165=ORIENTED_EDGE('',*,*,#122,.F.);
#166=ORIENTED_EDGE('',*,*,#124,.T.);
#167=ORIENTED_EDGE('',*,*,#125,.T.);
#168=ORIENTED_EDGE('',*,*,#126,.T.);
#169=ORIENTED_EDGE('',*,*,#124,.F.);
#170=ORIENTED_EDGE('',*,*,#126,.F.);
#171=ORIENTED_EDGE('',*,*,#127,.T.);
#172=ORIENTED_EDGE('',*,*,#125,.F.);
#173=ORIENTED_EDGE('',*,*,#128,.T.);
#174=ORIENTED_EDGE('',*,*,#129,.T.);
#175=ORIENTED_EDGE('',*,*,#130,.T.);
#176=ORIENTED_EDGE('',*,*,#128,.F.);
#177=ORIENTED_EDGE('',*,*,#127,.F.);
#178=ORIENTED_EDGE('',*,*,#130,.F.);
#179=ORIENTED_EDGE('',*,*,#129,.F.);
#180=ORIENTED_EDGE('',*,*,#131,.T.);
#181=ORIENTED_EDGE('',*,*,#132,.T.);
#182=ORIENTED_EDGE('',*,*,#133,.T.);
#183=ORIENTED_EDGE('',*,*,#134,.T.);
#184=ORIENTED_EDGE('',*,*,#131,.F.);
#185=ORIENTED_EDGE('',*,*,#132,.F.);
#186=ORIENTED_EDGE('',*,*,#134,.F.);
#187=ORIENTED_EDGE('',*,*,#135,.T.);
#188=ORIENTED_EDGE('',*,*,#133,.F.);
#189=ORIENTED_EDGE('',*,*,#135,.F.);
#190=ORIENTED_EDGE('',*,*,#136,.T.);
#191=ORIENTED_EDGE('',*,*,#137,.T.);
#192=ORIENTED_EDGE('',*,*,#138,.T.);
#193=ORIENTED_EDGE('',*,*,#136,.F.);
#194=ORIENTED_EDGE('',*,*,#138,.F.);
#195=ORIENTED_EDGE('',*,*,#137,.F.);
#196=ORIENTED_EDGE('',*,*,#112,.T.);
#197=CONICAL_SURFACE('',#236,21.9453079228,0.1745329252);
#198=CONICAL_SURFACE('',#240,21.24,0.1745329252);
#199=CONICAL_SURFACE('',#245,32.9446920772,0.1745329252);
#200=CONICAL_SURFACE('',#248,33.65,0.1745329252);
#201=CONICAL_SURFACE('',#253,29.7471444325,0.1745329252);
#202=CONICAL_SURFACE('',#256,29.13,0.2617993878);
#203=CONICAL_SURFACE('',#265,24.4,0.2617993878);
#204=ADVANCED_FACE('',(#24),#197,.F.);
#205=ADVANCED_FACE('',(#25),#198,.F.);
#206=ADVANCED_FACE('',(#26,#16),#20,.T.);
#207=ADVANCED_FACE('',(#27),#199,.T.);
#208=ADVANCED_FACE('',(#28),#200,.T.);
#209=ADVANCED_FACE('',(#29,#17),#21,.T.);
#210=ADVANCED_FACE('',(#30),#201,.F.);
#211=ADVANCED_FACE('',(#31),#202,.F.);
#212=ADVANCED_FACE('',(#32,#18),#22,.T.);
#213=ADVANCED_FACE('',(#33),#15,.T.);
#214=ADVANCED_FACE('',(#34),#203,.T.);
#215=ADVANCED_FACE('',(#35,#19),#23,.T.);
#216=CLOSED_SHELL('',(#204,#205,#206,#207,#208,#209,#210,#211,#212,#213,
#214,#215));
#217=DERIVED_UNIT_ELEMENT(#219,1.);
#218=DERIVED_UNIT_ELEMENT(#413,3.);
#219=(
MASS_UNIT()
NAMED_UNIT(*)
SI_UNIT($,.GRAM.)
);
#220=DERIVED_UNIT((#217,#218));
#221=MEASURE_REPRESENTATION_ITEM('density measure',
POSITIVE_RATIO_MEASURE(1.14),#220);
#222=PROPERTY_DEFINITION_REPRESENTATION(#227,#224);
#223=PROPERTY_DEFINITION_REPRESENTATION(#228,#225);
#224=REPRESENTATION('material name',(#226),#410);
#225=REPRESENTATION('density',(#221),#410);
#226=DESCRIPTIVE_REPRESENTATION_ITEM('Polyurethan','Polyurethan');
#227=PROPERTY_DEFINITION('material property','material name',#420);
#228=PROPERTY_DEFINITION('material property','density of part',#420);
#229=DATE_TIME_ROLE('creation_date');
#230=APPLIED_DATE_AND_TIME_ASSIGNMENT(#231,#229,(#420));
#231=DATE_AND_TIME(#232,#233);
#232=CALENDAR_DATE(2020,24,7);
#233=LOCAL_TIME(9,35,1.,#234);
#234=COORDINATED_UNIVERSAL_TIME_OFFSET(0,0,.BEHIND.);
#235=AXIS2_PLACEMENT_3D('placement',#345,#269,#270);
#236=AXIS2_PLACEMENT_3D('',#346,#271,#272);
#237=AXIS2_PLACEMENT_3D('',#349,#273,#274);
#238=AXIS2_PLACEMENT_3D('',#352,#276,#277);
#239=AXIS2_PLACEMENT_3D('',#353,#278,#279);
#240=AXIS2_PLACEMENT_3D('',#354,#280,#281);
#241=AXIS2_PLACEMENT_3D('',#358,#283,#284);
#242=AXIS2_PLACEMENT_3D('',#359,#285,#286);
#243=AXIS2_PLACEMENT_3D('',#360,#287,#288);
#244=AXIS2_PLACEMENT_3D('',#362,#289,#290);
#245=AXIS2_PLACEMENT_3D('',#363,#291,#292);
#246=AXIS2_PLACEMENT_3D('',#366,#293,#294);
#247=AXIS2_PLACEMENT_3D('',#368,#296,#297);
#248=AXIS2_PLACEMENT_3D('',#369,#298,#299);
#249=AXIS2_PLACEMENT_3D('',#373,#301,#302);
#250=AXIS2_PLACEMENT_3D('',#374,#303,#304);
#251=AXIS2_PLACEMENT_3D('',#375,#305,#306);
#252=AXIS2_PLACEMENT_3D('',#377,#307,#308);
#253=AXIS2_PLACEMENT_3D('',#378,#309,#310);
#254=AXIS2_PLACEMENT_3D('',#381,#311,#312);
#255=AXIS2_PLACEMENT_3D('',#383,#314,#315);
#256=AXIS2_PLACEMENT_3D('',#384,#316,#317);
#257=AXIS2_PLACEMENT_3D('',#388,#319,#320);
#258=AXIS2_PLACEMENT_3D('',#389,#321,#322);
#259=AXIS2_PLACEMENT_3D('',#390,#323,#324);
#260=AXIS2_PLACEMENT_3D('',#393,#325,#326);
#261=AXIS2_PLACEMENT_3D('',#394,#327,#328);
#262=AXIS2_PLACEMENT_3D('',#395,#329,#330);
#263=AXIS2_PLACEMENT_3D('',#398,#331,#332);
#264=AXIS2_PLACEMENT_3D('',#400,#334,#335);
#265=AXIS2_PLACEMENT_3D('',#401,#336,#337);
#266=AXIS2_PLACEMENT_3D('',#405,#339,#340);
#267=AXIS2_PLACEMENT_3D('',#406,#341,#342);
#268=AXIS2_PLACEMENT_3D('',#407,#343,#344);
#269=DIRECTION('axis',(0.,0.,1.));
#270=DIRECTION('refdir',(1.,0.,0.));
#271=DIRECTION('center_axis',(0.,-2.22044604925031E-16,1.));
#272=DIRECTION('ref_axis',(0.,-1.,-2.22044604925031E-16));
#273=DIRECTION('center_axis',(0.,2.22044604925031E-16,-1.));
#274=DIRECTION('ref_axis',(0.,1.,2.22044604925031E-16));
#275=DIRECTION('',(-2.12657684958261E-17,0.173648177667489,0.98480775301211));
#276=DIRECTION('center_axis',(0.,2.22044604925031E-16,-1.));
#277=DIRECTION('ref_axis',(0.,1.,2.22044604925031E-16));
#278=DIRECTION('center_axis',(0.,2.22044604925031E-16,-1.));
#279=DIRECTION('ref_axis',(0.,1.,2.22044604925031E-16));
#280=DIRECTION('center_axis',(0.,2.22044604925031E-16,-1.));
#281=DIRECTION('ref_axis',(0.,1.,2.22044604925031E-16));
#282=DIRECTION('',(-2.12657684958261E-17,-0.173648177667489,-0.98480775301211));
#283=DIRECTION('center_axis',(0.,2.22044604925031E-16,-1.));
#284=DIRECTION('ref_axis',(0.,1.,2.22044604925031E-16));
#285=DIRECTION('center_axis',(0.,2.22044604925031E-16,-1.));
#286=DIRECTION('ref_axis',(0.,1.,2.22044604925031E-16));
#287=DIRECTION('center_axis',(0.,2.22044604925031E-16,-1.));
#288=DIRECTION('ref_axis',(0.,1.,2.22044604925031E-16));
#289=DIRECTION('center_axis',(0.,2.22044604925031E-16,-1.));
#290=DIRECTION('ref_axis',(0.,1.,2.22044604925031E-16));
#291=DIRECTION('center_axis',(0.,-2.22044604925031E-16,1.));
#292=DIRECTION('ref_axis',(0.,-1.,-2.22044604925031E-16));
#293=DIRECTION('center_axis',(0.,2.22044604925031E-16,-1.));
#294=DIRECTION('ref_axis',(0.,1.,2.22044604925031E-16));
#295=DIRECTION('',(2.12657684958261E-17,-0.173648177667489,-0.984807753012109));
#296=DIRECTION('center_axis',(0.,2.22044604925031E-16,-1.));
#297=DIRECTION('ref_axis',(0.,1.,2.22044604925031E-16));
#298=DIRECTION('center_axis',(0.,2.22044604925031E-16,-1.));
#299=DIRECTION('ref_axis',(0.,1.,2.22044604925031E-16));
#300=DIRECTION('',(2.12657684958261E-17,0.173648177667489,0.98480775301211));
#301=DIRECTION('center_axis',(0.,2.22044604925031E-16,-1.));
#302=DIRECTION('ref_axis',(0.,1.,2.22044604925031E-16));
#303=DIRECTION('center_axis',(0.,2.22044604925031E-16,-1.));
#304=DIRECTION('ref_axis',(0.,1.,2.22044604925031E-16));
#305=DIRECTION('center_axis',(0.,-2.22044604925031E-16,1.));
#306=DIRECTION('ref_axis',(0.,-1.,-2.22044604925031E-16));
#307=DIRECTION('center_axis',(0.,2.22044604925031E-16,-1.));
#308=DIRECTION('ref_axis',(0.,1.,2.22044604925031E-16));
#309=DIRECTION('center_axis',(0.,-2.22044604925031E-16,1.));
#310=DIRECTION('ref_axis',(0.,-1.,-2.22044604925031E-16));
#311=DIRECTION('center_axis',(0.,2.22044604925031E-16,-1.));
#312=DIRECTION('ref_axis',(0.,1.,2.22044604925031E-16));
#313=DIRECTION('',(-2.12657684958261E-17,0.173648177667489,0.98480775301211));
#314=DIRECTION('center_axis',(0.,2.22044604925031E-16,-1.));
#315=DIRECTION('ref_axis',(0.,1.,2.22044604925031E-16));
#316=DIRECTION('center_axis',(0.,2.22044604925031E-16,-1.));
#317=DIRECTION('ref_axis',(0.,1.,2.22044604925031E-16));
#318=DIRECTION('',(-3.16961915144183E-17,-0.258819045103342,-0.965925826288848));
#319=DIRECTION('center_axis',(0.,2.22044604925031E-16,-1.));
#320=DIRECTION('ref_axis',(0.,1.,2.22044604925031E-16));
#321=DIRECTION('center_axis',(0.,2.22044604925031E-16,-1.));
#322=DIRECTION('ref_axis',(0.,1.,2.22044604925031E-16));
#323=DIRECTION('center_axis',(0.,-2.22044604925031E-16,1.));
#324=DIRECTION('ref_axis',(0.,-1.,-2.22044604925031E-16));
#325=DIRECTION('center_axis',(0.,2.22044604925031E-16,-1.));
#326=DIRECTION('ref_axis',(0.,1.,2.22044604925031E-16));
#327=DIRECTION('center_axis',(0.,2.22044604925031E-16,-1.));
#328=DIRECTION('ref_axis',(0.,1.,2.22044604925031E-16));
#329=DIRECTION('center_axis',(0.,-2.22044604925031E-16,1.));
#330=DIRECTION('ref_axis',(0.,1.,2.22044604925031E-16));
#331=DIRECTION('center_axis',(0.,2.22044604925031E-16,-1.));
#332=DIRECTION('ref_axis',(0.,1.,2.22044604925031E-16));
#333=DIRECTION('',(0.,2.22044604925031E-16,-1.));
#334=DIRECTION('center_axis',(0.,2.22044604925031E-16,-1.));
#335=DIRECTION('ref_axis',(0.,1.,2.22044604925031E-16));
#336=DIRECTION('center_axis',(0.,2.22044604925031E-16,-1.));
#337=DIRECTION('ref_axis',(0.,1.,2.22044604925031E-16));
#338=DIRECTION('',(3.16961915144183E-17,0.258819045103342,0.965925826288848));
#339=DIRECTION('center_axis',(0.,2.22044604925031E-16,-1.));
#340=DIRECTION('ref_axis',(0.,1.,2.22044604925031E-16));
#341=DIRECTION('center_axis',(0.,2.22044604925031E-16,-1.));
#342=DIRECTION('ref_axis',(0.,1.,2.22044604925031E-16));
#343=DIRECTION('center_axis',(0.,-2.22044604925031E-16,1.));
#344=DIRECTION('ref_axis',(0.,-1.,-2.22044604925031E-16));
#345=CARTESIAN_POINT('',(0.,0.,0.));
#346=CARTESIAN_POINT('Origin',(0.,-1.77635683940025E-15,4.));
#347=CARTESIAN_POINT('',(-2.60114980138898E-15,-21.24,-4.71622740860766E-15));
#348=CARTESIAN_POINT('',(-2.60114980138468E-15,21.2399999999649,6.19337914287144E-12));
#349=CARTESIAN_POINT('Origin',(0.,-8.88178419700125E-16,0.));
#350=CARTESIAN_POINT('',(0.,21.9453079228339,4.));
#351=CARTESIAN_POINT('',(-2.68752511039601E-15,21.9453079228,4.00000000000001));
#352=CARTESIAN_POINT('Origin',(0.,-1.77635683940025E-15,4.));
#353=CARTESIAN_POINT('Origin',(0.,-8.88178419700125E-16,0.));
#354=CARTESIAN_POINT('Origin',(0.,-8.88178419700125E-16,0.));
#355=CARTESIAN_POINT('',(-2.68752511040031E-15,-21.9453079228351,-3.99999999999382));
#356=CARTESIAN_POINT('',(-2.60114980138898E-15,-21.24,-4.71622740860766E-15));
#357=CARTESIAN_POINT('',(0.,21.9453079228339,-4.));
#358=CARTESIAN_POINT('Origin',(0.,0.,-4.));
#359=CARTESIAN_POINT('Origin',(0.,0.,-4.));
#360=CARTESIAN_POINT('Origin',(21.9453079228339,0.,-4.));
#361=CARTESIAN_POINT('',(0.,32.9446920771661,-3.99999999999999));
#362=CARTESIAN_POINT('Origin',(0.,0.,-4.));
#363=CARTESIAN_POINT('Origin',(0.,0.,-4.));
#364=CARTESIAN_POINT('',(-4.12093647913084E-15,-33.65,-7.4718009557273E-15));
#365=CARTESIAN_POINT('',(-4.12093647913514E-15,33.6500000000351,-6.1828320241375E-12));
#366=CARTESIAN_POINT('Origin',(0.,-8.88178419700125E-16,0.));
#367=CARTESIAN_POINT('',(-4.03456117012382E-15,32.9446920772,-3.99999999999999));
#368=CARTESIAN_POINT('Origin',(0.,-8.88178419700125E-16,0.));
#369=CARTESIAN_POINT('Origin',(0.,-8.88178419700125E-16,0.));
#370=CARTESIAN_POINT('',(-3.99137351561348E-15,-32.5920381157443,6.00000000000781));
#371=CARTESIAN_POINT('',(-4.12093647913084E-15,-33.65,-7.47180095572729E-15));
#372=CARTESIAN_POINT('',(0.,32.5920381157492,6.00000000000001));
#373=CARTESIAN_POINT('Origin',(0.,-2.22044604925031E-15,6.));
#374=CARTESIAN_POINT('Origin',(0.,-2.22044604925031E-15,6.));
#375=CARTESIAN_POINT('Origin',(32.5920381157492,-2.22044604925031E-15,6.));
#376=CARTESIAN_POINT('',(0.,29.7471444324796,6.00000000000001));
#377=CARTESIAN_POINT('Origin',(0.,-2.22044604925031E-15,6.));
#378=CARTESIAN_POINT('Origin',(0.,-2.22044604925031E-15,6.));
#379=CARTESIAN_POINT('',(-3.56739612591624E-15,-29.13,2.49999999999999));
#380=CARTESIAN_POINT('',(-3.56739612591842E-15,29.1300000000178,2.49999999999687));
#381=CARTESIAN_POINT('Origin',(0.,-1.4432899320127E-15,2.5));
#382=CARTESIAN_POINT('',(-3.64297452130351E-15,29.7471444325,6.00000000000001));
#383=CARTESIAN_POINT('Origin',(0.,-1.4432899320127E-15,2.5));
#384=CARTESIAN_POINT('Origin',(0.,-1.4432899320127E-15,2.5));
#385=CARTESIAN_POINT('',(-3.64943190612791E-15,-29.7998729810814,-4.98628915934773E-12));
#386=CARTESIAN_POINT('',(-3.56739612591624E-15,-29.13,2.49999999999999));
#387=CARTESIAN_POINT('',(0.,29.7998729810778,6.66133814775094E-15));
#388=CARTESIAN_POINT('Origin',(0.,-8.88178419700125E-16,0.));
#389=CARTESIAN_POINT('Origin',(0.,-8.88178419700125E-16,0.));
#390=CARTESIAN_POINT('Origin',(29.7998729810778,-8.88178419700125E-16,0.));
#391=CARTESIAN_POINT('',(0.,24.4,5.55111512312578E-15));
#392=CARTESIAN_POINT('',(2.98813818991954E-15,-24.4,-5.55111512312578E-15));
#393=CARTESIAN_POINT('Origin',(0.,-8.88178419700125E-16,0.));
#394=CARTESIAN_POINT('Origin',(0.,-8.88178419700125E-16,0.));
#395=CARTESIAN_POINT('Origin',(0.,0.,-4.));
#396=CARTESIAN_POINT('',(0.,24.4,1.00000000000001));
#397=CARTESIAN_POINT('',(2.98813818991954E-15,-24.4,0.999999999999994));
#398=CARTESIAN_POINT('Origin',(0.,-1.11022302462516E-15,1.));
#399=CARTESIAN_POINT('',(2.98813818991954E-15,-24.4,-4.00000000000001));
#400=CARTESIAN_POINT('Origin',(0.,-1.11022302462516E-15,1.));
#401=CARTESIAN_POINT('Origin',(0.,-1.11022302462516E-15,1.));
#402=CARTESIAN_POINT('',(-2.88969525366571E-15,-23.5961524227036,4.00000000000097));
#403=CARTESIAN_POINT('',(-2.98813818991954E-15,-24.4,0.999999999999995));
#404=CARTESIAN_POINT('',(0.,23.5961524227066,4.00000000000001));
#405=CARTESIAN_POINT('Origin',(0.,-1.77635683940025E-15,4.));
#406=CARTESIAN_POINT('Origin',(0.,-1.77635683940025E-15,4.));
#407=CARTESIAN_POINT('Origin',(23.5961524227066,-1.77635683940025E-15,4.));
#408=UNCERTAINTY_MEASURE_WITH_UNIT(LENGTH_MEASURE(0.01),#412,
'DISTANCE_ACCURACY_VALUE',
'Maximum model space distance between geometric entities at asserted c
onnectivities');
#409=UNCERTAINTY_MEASURE_WITH_UNIT(LENGTH_MEASURE(0.01),#412,
'DISTANCE_ACCURACY_VALUE',
'Maximum model space distance between geometric entities at asserted c
onnectivities');
#410=(
GEOMETRIC_REPRESENTATION_CONTEXT(3)
GLOBAL_UNCERTAINTY_ASSIGNED_CONTEXT((#408))
GLOBAL_UNIT_ASSIGNED_CONTEXT((#412,#414,#415))
REPRESENTATION_CONTEXT('','3D')
);
#411=(
GEOMETRIC_REPRESENTATION_CONTEXT(3)
GLOBAL_UNCERTAINTY_ASSIGNED_CONTEXT((#409))
GLOBAL_UNIT_ASSIGNED_CONTEXT((#412,#414,#415))
REPRESENTATION_CONTEXT('','3D')
);
#412=(
LENGTH_UNIT()
NAMED_UNIT(*)
SI_UNIT(.MILLI.,.METRE.)
);
#413=(
LENGTH_UNIT()
NAMED_UNIT(*)
SI_UNIT(.CENTI.,.METRE.)
);
#414=(
NAMED_UNIT(*)
PLANE_ANGLE_UNIT()
SI_UNIT($,.RADIAN.)
);
#415=(
NAMED_UNIT(*)
SI_UNIT($,.STERADIAN.)
SOLID_ANGLE_UNIT()
);
#416=SHAPE_DEFINITION_REPRESENTATION(#417,#418);
#417=PRODUCT_DEFINITION_SHAPE('',$,#420);
#418=SHAPE_REPRESENTATION('',(#235),#410);
#419=PRODUCT_DEFINITION_CONTEXT('part definition',#424,'design');
#420=PRODUCT_DEFINITION('413522301','413522301 D\X\E4mpfungsring 60',#421,
#419);
#421=PRODUCT_DEFINITION_FORMATION('',$,#426);
#422=PRODUCT_RELATED_PRODUCT_CATEGORY('413522301 D\X\E4mpfungsring 60',
'413522301 D\X\E4mpfungsring 60',(#426));
#423=APPLICATION_PROTOCOL_DEFINITION('international standard',
'automotive_design',2009,#424);
#424=APPLICATION_CONTEXT(
'Core Data for Automotive Mechanical Design Process');
#425=PRODUCT_CONTEXT('part definition',#424,'mechanical');
#426=PRODUCT('413522301','413522301 D\X\E4mpfungsring 60',
'D\X\E4mpfungsring 60',(#425));
#427=PRESENTATION_STYLE_ASSIGNMENT((#428));
#428=SURFACE_STYLE_USAGE(.BOTH.,#431);
#429=SURFACE_STYLE_RENDERING_WITH_PROPERTIES($,#435,(#430));
#430=SURFACE_STYLE_TRANSPARENT(0.);
#431=SURFACE_SIDE_STYLE('',(#432,#429));
#432=SURFACE_STYLE_FILL_AREA(#433);
#433=FILL_AREA_STYLE('',(#434));
#434=FILL_AREA_STYLE_COLOUR('',#435);
#435=COLOUR_RGB('',0.96078431372549,0.96078431372549,0.96078431372549);
ENDSEC;
END-ISO-10303-21;
